WALTER'S WALK

6 5 4 3 2 1
E A D G B E
E|----------------|----------------|----------------|----------------|
B|----------------|----------------|----------------|----------------|
G|----------------|----121212------|--1213--1212----|----12--1213----|
D|--------------12|----12121214--12|--12----1214--12|----12--1214--9-|
A|--------------12|--14--14----0-12|--14--14------12|--14--14----0-7-|
E|----------------|----------------|------------0---|------------0---|

E|----------------|----------------|----------------|----------------|
B|----------------|----------------|----------12----|----------------|
G|----------------|----12--12------|----12--1212----|--------1213----|
D|--9---9-7-9---12|----12----12--12|----121212----12|----12--1214--9-|
A|--7---7-5-7---12|--14--14--12--12|--14----------12|--14--14----0-7-|
E|----------------|----------------|----------------|------------0---|

E|----------------||
B|----------------||
G|----------------||
D|--9---9-7-9-----||
A|--7---7-5-7-----||
E|--------------3-||

E|----------------|----------------|----------------|----------------|
B|----------------|----------------|----------------|----------------|
G|----------0-----|----------0-----|----------0---2-|--2---0-1-------|
D|----------0-----|----------0-----|----------0---2-|--2-------2-----|
A|----0-1-2-------|----0-1-2-------|----0-1-2-----0-|--0---------2---|
E|--3-----------3-|--3-----------3-|--3-------------|--------------3-|

E|----------------|----------------|----------------|----------------|
B|----------------|----------------|----------------|----------------|
G|----------0-----|----------0-----|----------0---2-|--2---0-1-------|
D|----------0-----|----------0-----|----------0---2-|--2-------2-----|
A|----0-1-2-------|----0-1-2-------|----0-1-2-----0-|--0---------2---|
E|--3-----------3-|--3-----------3-|--3-------------|--------------3-|

E|----------------|----------------|----------------|----------------|
B|----------------|----------------|----------------|----------------|
G|----------0-----|----------0-----|----------0---2-|--2---0-1-------|
D|----------0-----|----------0-----|----------0---2-|--2-------2-----|
A|----0-1-2-------|----0-1-2-------|----0-1-2-----0-|--0---------2---|
E|--3-----------3-|--3-----------3-|--3-------------|--------------3-|

E|----------------|----------------|----------------|----------------||
B|----------------|----------------|----------------|----------------||
G|----------0-----|----------0-----|----------0---2-|--2---0-1-------||
D|----------0-----|----------0-----|----------0---2-|--2-------2-0---||
A|----0-1-2-------|----0-1-2-------|----0-1-2-----0-|--0-----------3-||
E|--3-----------3-|--3-----------3-|--3-------------|----------------||

E|----------------|----------------|----------------|----------------|
B|----------------|----------------|----------------|----------------|
G|----------------|--4-----------4-|----------------|----------------|
D|--2-4---------2-|4-5-------2-4-5-|--2-2-2-4-2-----|------2-4-------|
A|4-----0---3-4---|------3-4-------|--3-4-------3-4-|0-3-4-----0---3-|
E|----------------|----------------|----------------|----------------|

                                    2/4 time
E|----------------|----------------|--------|
B|----------------|----------------|--------|
G|------4---------|----------------|--------|
D|--2-4-5---2---2-|4-5-------2-4-2-|--------|
A|4---------3-4---|------3-4-------|3-4-0---|
E|----------------|----------------|------3-|
  4/4 time
E|----------------|----------------|----------------|----------------|
B|----------------|----------------|----------------|----------------|
G|----------0-----|----------0-----|----------0---2-|--2---0-1-------|
D|----------0-----|----------0-----|----------0---2-|--2-------2-----|
A|----0-1-2-------|----0-1-2-------|----0-1-2-----0-|--0---------2---|
E|--3-----------3-|--3-----------3-|--3-------------|--------------3-|

E|----------------|----------------|----------------|----------------|
B|----------------|----------------|----------------|----------------|
G|----------0-----|----------0-----|----------0---2-|--2---0-1-------|
D|----------0-----|----------0-----|----------0---2-|--2-------2-----|
A|----0-1-2-------|----0-1-2-------|----0-1-2-----0-|--0---------2---|
E|--3-----------3-|--3-----------3-|--3-------------|--------------3-|

E|----------------|----------------|----------------|----------------|
B|----------------|----------------|----------------|----------------|
G|----------12----|----------12----|----------12--14|--14--1213------|
D|----------12----|----------12----|----------12--14|--14------14----|
A|----121314------|----121314------|----121314------|------------15--|
E|--3-----------15|--15----------15|--15------------|--------------15|

E|----------------|----------------|----------------|----------------||
B|----------------|----------------|----------------|----------------||
G|----------12----|----------12----|----------12--14|--14--1213------||
D|----------12----|----------12----|----------12--14|--14------14----||
A|----121314------|----121314------|----121314------|--------------7-||
E|--15----------15|--15----------15|--15------------|----------------||

E|----------------|----------------|----------------|----------------|
B|----------------|----------------|----------------|----------------|
G|----------------|----------------|----------------|----------------|
D|----------------|--------------7-|9-------------9-|--9---9-7-9-----|
A|(7)-------------|(7)-----------5-|7-------------7-|--7---7-5-7-----|
E|----------------|----------------|--0-------------|--------------0-|

E|----------------|----------------|----------------|----------------||
B|----------------|----------------|----------------|----------------||
G|----------------|----------------|----------------|----------------||
D|----------------|----------------|--------------9-|--9---9-7-9-----||
A|----------------|----------------|--------------7-|--7---7-5-7-----||
E|(0)-------------|(0)-----------0-|(0)-------------|--------------3-||

E|----------------|----------------|----------------|----------------|
B|----------------|----------------|----------------|----------------|
G|----------0-----|----------0-----|----------0---2-|--2---0-1-------|
D|----------0-----|----------0-----|----------0---2-|--2-------2-----|
A|----0-1-2-------|----0-1-2-------|----0-1-2-----0-|--0---------2---|
E|--3-----------3-|--3-----------3-|--3-------------|--------------3-|

E|----------------|----------------|----------------|----------------|
B|----------------|----------------|----------------|----------------|
G|----------0-----|----------0-----|----------0---2-|--2---0-1-------|
D|----------0-----|----------0-----|----------0---2-|--2-------2-----|
A|----0-1-2-------|----0-1-2-------|----0-1-2-----0-|--0---------2---|
E|--3-----------3-|--3-----------3-|--3-------------|--------------3-|

E|----------------|----------------|----------------|----------------|
B|----------------|----------------|----------------|----------------|
G|----------0-----|----------0-----|----------0---2-|--2---0-1-------|
D|----------0-----|----------0-----|----------0---2-|--2-------2-----|
A|----0-1-2-------|----0-1-2-------|----0-1-2-----0-|--0---------2---|
E|--3-----------3-|--3-----------3-|--3-------------|--------------3-|

E|----------------|----------------|----------------|----------------||
B|----------------|----------------|----------------|----------------||
G|----------0-----|----------0-----|----------0---2-|--2---0-1-------||
D|----------0-----|----------0-----|----------0---2-|--2-------2-0---||
A|----0-1-2-------|----0-1-2-------|----0-1-2-----0-|--0-----------3-||
E|--3-----------3-|--3-----------3-|--3-------------|----------------||

E|----------------|----------------|----------------|----------------|
B|----------------|----------------|----------------|----------------|
G|----------------|--4-----------4-|----------------|----------------|
D|--2-4---------2-|4-5-------2-4-5-|--2-2-2-4-2-----|------2-4-------|
A|4-----0---3-4---|------3-4-------|--3-4-------3-4-|0-3-4-----0---3-|
E|----------------|----------------|----------------|----------------|

                                    2/4 time
E|----------------|----------------|--------|
B|----------------|----------------|--------|
G|------4---------|----------------|--------|
D|--2-4-5---2---2-|4-5-------2-4-2-|--------|
A|4---------3-4---|------3-4-------|3-4-0---|
E|----------------|----------------|------3-|

  4/4 time
E|----------------|----------------|----------------|----------------|
B|----------------|----------------|----------------|----------------|
G|----------0-----|----------0-----|----------0---2-|--2---0-1-------|
D|----------0-----|----------0-----|----------0---2-|--2-------2-----|
A|----0-1-2-------|----0-1-2-------|----0-1-2-----0-|--0---------2---|
E|--3-----------3-|--3-----------3-|--3-------------|--------------3-|

E|----------------|----------------|----------------|----------------|
B|----------------|----------------|----------------|----------------|
G|----------0-----|----------0-----|----------0---2-|--2---0-1-------|
D|----------0-----|----------0-----|----------0---2-|--2-------2-----|
A|----0-1-2-------|----0-1-2-------|----0-1-2-----0-|--0---------2---|
E|--3-----------3-|--3-----------3-|--3-------------|--------------3-|

E|----------------|----------------|----------------|----------------|
B|----------------|----------------|----------------|----------------|
G|----------12----|----------12----|----------12--14|--14--1213------|
D|----------12----|----------12----|----------12--14|--14------14----|
A|----121314------|----121314------|----121314------|------------15--|
E|--3-----------15|--15----------15|--15------------|--------------15|

E|----------------|----------------|----------------|----------------||
B|----------------|----------------|----------------|----------------||
G|----------12----|----------12----|----------12--14|--14--1213------||
D|----------12----|----------12----|----------12--14|--14------14----||
A|----121314------|----121314------|----121314------|--------------7-||
E|--15----------15|--15----------15|--15------------|----------------||

E|----------------|----------------|----------------|----------------|
B|----------------|----------------|----------------|----------------|
G|----------------|----------------|----------------|----------------|
D|----------------|--------------7-|9-------------9-|--9---9-7-9-----|
A|(7)-------------|(7)-----------5-|7-------------7-|--7---7-5-7-----|
E|----------------|----------------|--0-------------|--------------0-|

E|----------------|----------------|----------------|----------------||
B|----------------|----------------|----------------|----------------||
G|----------------|----------------|----------------|----------------||
D|----------------|----------------|--------------9-|--9---9-7-9---12||
A|----------------|----------------|--------------7-|--7---7-5-7---12||
E|(0)-------------|(0)-----------0-|(0)-------------|----------------||

E|----------------|----------------|----------------|----------------|
B|----------------|----------------|----------------|----------------|
G|----12--1213----|----12--1213----|----13--12------|----------------|
D|----12--12141412|----12--1214--12|--9-13141214--9-|--9---9-7-9---12|
A|--14--14------12|--14--14------12|------14------7-|--7---7-5-7---12|
E|----------------|----------------|----------------|----------------|

E|----------------|----------------|----------------|----------------|
B|----------------|----------------|----------------|----------------|
G|----12--1213----|----12--12------|----12--1213----|----------------|
D|----12141214--12|----12141214--12|----12--1214--9-|--9---9-7-9-----|
A|--14--14------12|1414--14------12|--14--14------7-|--7---7-5-7-----|
E|----------------|----------------|----------------|--------------3-|

  Guitar Solo
E|----------------|----------------|----------------|----------------|
B|----------------|----------------|----------------|----------------|
G|----------0-----|----------0-----|----------0---2-|--2---0-1-------|
D|----------0-----|----------0-----|----------0---2-|--2-------2-----|
A|----0-1-2-------|----0-1-2-------|----0-1-2-----0-|--0---------2---|
E|--3-----------3-|--3-----------3-|--3-------------|--------------3-|

E|----------------|----------------|----------------|----------------|
B|----------------|----------------|----------------|----------------|
G|----------0-----|----------0-----|----------0---2-|--2---0-1-------|
D|----------0-----|----------0-----|----------0---2-|--2-------2-----|
A|----0-1-2-------|----0-1-2-------|----0-1-2-----0-|--0---------2---|
E|--3-----------3-|--3-----------3-|--3-------------|--------------3-|

E|----------------|----------------|----------------|----------------|
B|----------------|----------------|----------------|----------------|
G|----------0-----|----------0-----|----------0---2-|--2---0-1-------|
D|----------0-----|----------0-----|----------0---2-|--2-------2-----|
A|----0-1-2-------|----0-1-2-------|----0-1-2-----0-|--0---------2---|
E|--3-----------3-|--3-----------3-|--3-------------|--------------3-|

E|----------------|----------------|----------------|----------------||
B|----------------|----------------|----------------|----------------||
G|----------0-----|----------0-----|----------0---2-|--2---0-1-------||
D|----------0-----|----------0-----|----------0---2-|--2-------2-0---||
A|----0-1-2-------|----0-1-2-------|----0-1-2-----0-|--0-----------3-||
E|--3-----------3-|--3-----------3-|--3-------------|----------------||

E|----------------|----------------|----------------|----------------|
B|----------------|----------------|----------------|----------------|
G|----------------|--4-----------4-|----------------|----------------|
D|--2-4---------2-|4-5-------2-4-5-|--2-2-2-4-2-----|------2-4-------|
A|4-----0---3-4---|------3-4-------|--3-4-------3-4-|0-3-4-----0---3-|
E|----------------|----------------|----------------|----------------|

                                    2/4 time
E|----------------|----------------|--------|
B|----------------|----------------|--------|
G|------4---------|----------------|--------|
D|--2-4-5---2---2-|4-5-------2-4-2-|--------|
A|4---------3-4---|------3-4-------|3-4-0---|
E|----------------|----------------|------3-|

  4/4 time
E|----------------|----------------|----------------|----------------|
B|----------------|----------------|----------------|----------------|
G|----------0-----|----------0-----|----------0---2-|--2---0-1-------|
D|----------0-----|----------0-----|----------0---2-|--2-------2-----|
A|----0-1-2-------|----0-1-2-------|----0-1-2-----0-|--0---------2---|
E|--3-----------3-|--3-----------3-|--3-------------|--------------3-|

E|----------------|----------------|----------------|----------------|
B|----------------|----------------|----------------|----------------|
G|----------0-----|----------0-----|----------0---2-|--2---0-1-------|
D|----------0-----|----------0-----|----------0---2-|--2-------2-----|
A|----0-1-2-------|----0-1-2-------|----0-1-2-----0-|--0---------2---|
E|--3-----------3-|--3-----------3-|--3-------------|--------------15|

E|----------------|----------------|----------------|----------------|
B|----------------|----------------|----------------|----------------|
G|----------12----|----------12----|----------12--14|--14--1213------|
D|----------12----|----------12----|----------12--14|--14------14----|
A|----121314------|----121314------|----121314------|------------15--|
E|--15----------15|--15----------15|--15------------|--------------15|

E|----------------|----------------|----------------|----------------||
B|----------------|----------------|----------------|----------------||
G|----------12----|----------12----|----------12--14|--14--1213------||
D|----------12----|----------12----|----------12--14|--14------14--12||
A|----121314------|----121314------|----121314------|--------------12||
E|--15----------15|--15----------15|--15------------|----------------||

E|----------------|----------------|----------------|----------------|
B|----------------|----------------|----------------|--15--151412----|
G|----12--1213----|----12--1213----|----12--12----14|16--16--1412----|
D|----12--1214--12|----12--1214--12|----12--12------|--------------12|
A|--14--14----0-12|--14--14----0-12|--14--14--0-----|--------------12|
E|----------------|----------------|------------0---|----------------|

E|----------------|----------------|----------------|----------------|
B|----------------|------------1315|--15151515151515|1515------------|
G|----12--1213----|----12--12131416|--16161616161616|161615141412----|
D|----12--1214--12|----12--1214----|----------------|------------1412|
A|--14--14----0-12|--14--14--------|----------------|--------------12|
E|----------------|----------------|----------------|----------------|

E|----------------|----------------|----------------|----------------|
B|--------1213----|----------------|----------------|----------------|
G|----12--1214----|----12--1213----|--------12------|----------1212--|
D|----12--------12|----12--1214--12|----12--1214----|----------121214|
A|--14--14----0-12|--14--14----0-12|--14--14--14--12|10--101214------|
E|----------------|----------------|------------0---|--12--0---------|

E|----------------|----------------|----------------|----------------|
B|----------------|----------------|--------------15|15--15----------|
G|----------------|----12--12------|----12----15----|16----16--16----|
D|141412--1214--12|----12--1214--12|----12----------|----------------|
A|141412141214--12|--14--14----0-12|--14--149-------|----------------|
E|----------------|----------------|----------------|----------------|

E|12--------------|----------------|----0-----------|----------------|
B|12------------15|--15------------|--------------15|--1514----------|
G|12--14--1213--16|--1614--1213--15|--1514--1213--15|161614--1213----|
D|----14--1214----|----14--12----16|--16----1214----|----14--1212----|
A|----14------14--|----------------|----------------|----------------|
E|------------12--|----------------|----------------|--------------0-|

E|----------------|----------------|----------------|----------------|
B|----------------|----------------|----------------|----------------|
G|----------------|--------------9-|--9-7---9-9-9---|----------------|
D|----9---7-9---9-|--9-9---7-----9-|--9-7---9-9-9-7-|--------------9-|
A|----7---5-7---7-|--7-7---5-7---7-|--7-5---7-7-7-5-|--7---5---7---7-|
E|--0-------------|----------------|----------------|--5---3---5-----|

E|----------------|
B|----------------|
G|----------------|
D|9---9-7-9-9---9-|
A|7---7-5-7-7---7-|
E|--------------0-|

E|----------------|--------------7-|--7-------------|--------------7-|
B|----------------|--------------7-|--7-------------|--------------7-|
G|----------------|--------------7-|--7-------------|--------------7-|
D|----------------|9-9-----9-------|----------------|9-9-----9-------|
A|--------------5-|7-7-----7-------|--------------5-|7-7-----7-------|
E|----------------|----0-----0-----|----------------|----0-----0-----|

E|--7-------------|--------------7-|--7-------------|--------------7-|
B|--7-------------|--------------7-|--7-------------|--------------7-|
G|--7-------------|--------------7-|--7-------------|--------------7-|
D|----------------|9-9-----9-------|----------------|9-9-----9-------|
A|--------------5-|7-7-----7-------|--------------5-|7-7-----7-------|
E|----------------|----0-----0-----|----------------|----0-----0-----|

E|--7-------------|--------------7-|--7-------------|--------------7-|
B|--7-------------|--------------7-|--7-------------|--------------7-|
G|--7-------------|--------------7-|--7-------------|--------------7-|
D|----------------|9-9-----9-------|----------------|9-9-----9-------|
A|--------------5-|7-7-----7-------|--------------5-|7-7-----7-------|
E|----------------|----0-----0-----|----------------|----0-----0-----|

E|--7-------------|--------------7-|--7-------------|--------------7-|
B|--7-------------|--------------7-|--7-------------|--------------7-|
G|--7-------------|--------------7-|--7-------------|--------------7-|
D|----------------|9-9-----9-------|----------------|9-9-----9-------|
A|--------------5-|7-7-----7-------|--------------5-|7-7-----7-------|
E|----------------|----0-----0-----|----------------|----0-----0-----|

E|--7-------------|--------------7-|--7-------------|--------------7-|
B|--7-------------|--------------7-|--7-------------|--------------7-|
G|--7-------------|--------------7-|--7-------------|--------------7-|
D|----------------|9-9-----9-------|----------------|9-9-----9-------|
A|--------------5-|7-7-----7-------|--------------5-|7-7-----7-------|
E|----------------|----0-----0-----|----------------|----0-----0-----|

E|--7-------------|--------------7-|--7-------------|--------------7-|
B|--7-------------|--------------7-|--7-------------|--------------7-|
G|--7-------------|--------------7-|--7-------------|--------------7-|
D|----------------|9-9-----9-------|----------------|9-9-----9-------|
A|--------------5-|7-7-----7-------|--------------5-|7-7-----7-------|
E|----------------|----0-----0-----|----------------|----0-----0-----|

  Guitar Solo
E|----------------|----------------|----------------|----------------|
B|--1111108-----10|111111108-----11|--1012108-------|--------------10|
G|----------------|----------------|------------9-9-|--9-------------|
D|----------------|----------------|----------------|----------------|
A|----------------|----------------|----------------|11--------------|
E|----------------|----------------|----------------|----------------|

E|----------------|----------------|----------------|----------------|
B|--1011108---8-11|--1011108-----11|--1011----108---|--9-------------|
G|----------9-----|----------------|--------------9-|----------------|
D|----------------|----------------|----------------|----------------|
A|----------------|----------------|----------------|11--------------|
E|----------------|----------------|----------------|----------------|

E|----------------|----------------|----------------|----------------|
B|----10--11--12--|1212108-------12|--12--1212108---|--------------10|
G|----------------|----------------|----------------|--9-------------|
D|----------------|----------------|----------------|----------------|
A|----------------|----------------|--------------10|13--------------|
E|----------------|----------------|----------------|----------------|

E|----------------|----------------|----------------|----------------|
B|--10--1011----11|--11--108-----11|--11--118-------|----------------|
G|----------------|----------------|----------0-9-9-|--9-------------|
D|----------------|----------------|----------------|----------------|
A|----------------|----------------|----------------|11--------------|
E|----------------|----------------|----------------|----------------|