TRAVELLING RIVERSIDE BLUES

6 5 4 3 2 1
D G D G B D
D|-/12-12-12-12-12\-0-0-3-5-3-0-|-----0-----0-----0-----0-------|
B|-/12-12-12-12-12\-0-0-3-5-3-0-|---0-----0-----0-----0---------|
G|-/12-12-12-12-12\-0-0-3-5-3-0-|-------------------------------|
D|-/12-12-12-12-12\-0---3-5-3-0-|-3-----2-----0-----------3p4-0-|
G|------------------------------|-------------------5-----------|
D|------------------------------|-------------------------------|

  Guitar Solo
D|------------------------------------------------------9--10--12------|
B|-10b11r10-8---8---10b11r10-8---8---10b11r10-8---8-10-------------8---|
G|------------9----------------9----------------9----------------------|
D|---------------------------------------------------------------------|
G|---------------------------------------------------------------------|
D|-(3:10)--------------------------------------------------------------|

D|------------------------------------------------------11-12-12b14-12-|
B|-10b11r10-8---8---10b11r10-8---8---10b11r10-8---8-10-----------------|
G|------------9----------------9----------------9----------------------|
D|---------------------------------------------------------------------|
G|---------------------------------------------------------------------|
D|-(3:14)--------------------------------------------------------------|

D|---------------------------------------------------------------------|
B|-8--10~~~~~----------------------------------------------------------|
G|---------------------------------------------------------------------|
D|---------------------------------------------------------------------|
G|---------------------------------------------------------------------|
D|-(3:20)--------------------------------------------------------------|