TRAMPLED UNDER FOOT

6 5 4 3 2 1
E A D G B E
  Heres the main riff:
E|--------------------------------------------------------------------------
B|2-3-----------------------------------------------------------------------
G|2-3--2-3-0-------0--------------------------------------------------------
D|-----------3-0-3----------------------------------------------------------
A|--------------------------------------------------------------------------
E|--------------------------------------------------------------------------

And this ascending part:

E|-----5-5-5-------7-7-7---------10-10-10----------12-12-12-----------------
B|--------------------------------------------------------------------------
G|-4/6---------6/8---------9/11--------------11/13--------------------------
D|--------------------------------------------------------------------------
A|--------------------------------------------------------------------------
E|--------------------------------------------------------------------------

And after that this is played:

E|-11--11-------------------------11-11-------------------------------------
B|-11--12--11-12------------------11-12-11-12-------------------------------
G|----------------12-10----10-12--------------12-10----10-12\---------------
D|----------------------12--------------------------12----------------------
A|--------------------------------------------------------------------------
E|--------------------------------------------------------------------------

And the chord before the keyboard solo and at the end of the song:

E|--------------------------------------------------------------------------
B|--------------------------------------------------------------------------
G|--7-----------------------------------------------------------------------
D|--5-----------------------------------------------------------------------
A|--------------------------------------------------------------------------
E|--------------------------------------------------------------------------