THE SONG REMAINS THE SAME

6 5 4 3 2 1
E A D G B E
3 Guitar Parts

The intro is 1 12-string banging out an open D repeatedly.
One 12-string plays this set of chords over it:
E|-2-----5-----7-----9\----14------14\-----------------------------------
B|-3-----6-----8----10\----15------15\-----------------------------------
G|-2-----5-----7-----9\----14------14\-----------------------------------
D|-----------------------------------------------------------------------
A|-----------------------------------------------------------------------
E|-----------------------------------------------------------------------

and the third 12 plays these chords:
E|-------------12----12---------14-----14\-------------------------------
B|-7-----8-----12----14---------15-----15\-------------------------------
G|-7-----7-----12----14---------14-----14\-------------------------------
D|-7----10---------------------------------------------------------------
A|-----------------------------------------------------------------------
E|-----------------------------------------------------------------------

Now one 12 stops playing and one 12 plays
these chords while the second 12 plays the
same chords but with an open D-string instead
of a second fret D.
E|-0----0-0--2------2-2--0---0-0--2--2-2--3--3-3-0--0-0--3--3-3--2------
B|-3----3-3--3------3-3--3---3-3--3--3-3--3--3-3-3--3-3--3--3-3--3------
G|-2----2-2--2------2-2--2---2-2--2--2-2--2--2-2-2--2-2--2--2-2--2------
D|-2----2-2--2------2-2--2---2-2--2--2-2--2--2-2-2--2-2--2--2-2--2------
A|----------------------------------------------------------------------
E|----------------------------------------------------------------------

Now this chord sequence is played by 2 12's the same way
and repeat it.                  /-again the 2nd 12 plays the open D on this chd
E|2--2-2-----2--2--3--3-3----2--0---------------------------------------
B|3--3-3-----3--3--3--3-3----3--3---------------------------------------
G|2--2-2-----2--2--2--2-2----2--2---------------------------------------
D|0--0-0-----0--0--0--0-0----0--0---------------------------------------
A|-----------------------------------------------------------------------
E|----------------------------------------------------------------------

Next is both 12's playing this:
E|--0----0---0-0----0---0---0-------0--------0----0-0-0-0-0-0-0-0-0-0----
B|--1-1----1---0-0--0-----0----1--3---3-1-3-------0-0-0-0-0-0-0-0-0-0----
G|-----------------------------------------------------------------------
D|3-----------------3----------3-----------------------------------------
A|-----------------------------------------------------------------------
E|-----------------------------------------------------------------------

Next one of the 6 strings come
in with the 2 12's to play this:
E|-0----0-0--2------2-2--0---0-0--2--2-2--3--3-3-0--0-0--3--3-3--2------
B|-3----3-3--3------3-3--3---3-3--3--3-3--3--3-3-3--3-3--3--3-3--3------
G|-2----2-2--2------2-2--2---2-2--2--2-2--2--2-2-2--2-2--2--2-2--2------
D|-2----2-2--2------2-2--2---2-2--2--2-2--2--2-2-2--2-2--2--2-2--2------
A|----------------------------------------------------------------------
E|----------------------------------------------------------------------

One this next distorted part, 
the six string plays this:           and 12's play this
E|------------------------------------------------2-----------------------
B|------------------------------------------------3-----------------------
G|------------------------------------------------2-----------------------
D|------------------------------------------------2-----------------------
A|--------------0------------------------------0--------------------------
E|--3^4--0-3^4--0-----------------3^4--0--3^4-----------------------------

Here is the 2 12's backing part to the first solo:
E|--2------2---3--3-------5--3-------------------------------------------
B|----3------3------3-----3--5-------------------------------------------
G|------2-------------2--------------------------------------------------
D|0----------------------------------------------------------------------
A|-----------------------------------------------------------------------
E|-----------------------------------------------------------------------

And the first 6 string solo:
E|-----------------------------------------------------------------------
B|-----------------------------------------------------------------------
G|----------------------------------------------------7-9-7---7----------
D|-----------------------7-9-7---9-7---7--7-7-----7-9-------9------------
A|3^4--0--3^4--5-7p5-7/9-------9-----9-----------------------------------
E|-----------------------------------------------------------------------

E|------------7----------------------------------------10----------------
B|--------------10-7-----------------------------------------------------
G|---7--9^11---------9-7---9-7---7-9-7---7-7----7-9^11----(11)^9--7------
D|-9---------------------9-----9-------9-----9---------------------------
A|-----------------------------------------------------------------------
E|-----------------------------------------------------------------------

E|-----------------------------------7------------------------------------
B|-7^8-7-------------------------------10-7-------------------------------
G|-------7------7-9-7---7----7-9^11---------9-7---9-7---7-----------------
D|----------7-9-------9----9--------------------9-----9-------------------
A|------------------------------------------------------------------------
E|------------------------------------------------------------------------

Now the 6 string plays this figure a few times:
E|-----------------------------0------------------------------------------
B|-----------------------------0------------------------------------------
G|-/5-4-2---2----/5-4--2-----2--------------------------------------------
D|--------3--------------3-3----------------------------------------------
A|------------------------------------------------------------------------
E|------------------------------------------------------------------------

And ends it with this:
E|-----------------------------------------------------------------------
B|-----------------------------------------------------------------------
G|-/5-4-2-0--------------------------------------------------------------
D|-----------3-2-0-------------------------------------------------------
A|-----------------3-2-0-------------------------------------------------
E|-----------------------------------------------------------------------

The 2 12's play this after the solo: 
and end that section with a bunch of        /-these 
E|-3-5---8--8--8------3--5---8--8--8--7-7---8---------------------------
B|-5-7--10-10-10------5--7--10-10-10--9-9--10---------------------------
G|----------------------------------------------------------------------
D|---------------------------0------------------------------------------
A|----------------------------------------------------------------------
E|----------------------------------------------------------------------

During the vocals, the 2 12's play on this basic
pattern with a few subtle changes on the first
couple of measures.
E|-0---0---------------3-----0------0-----------------------------------
B|-1---1-----3-----3h5----3--3--3-3---3p1-----0-------------------------
G|-0---0-----0-----------------------------0----------------------------
D|-2---2----------------------------------------------------------------
A|-3---3----------------------------------------------------------------
E|----------------------------------------------------------------------

While the 6 plays this on the first two measures.
E|----------------------3----------------------------3------------------------
B|---------------1---------------------------------3-------3---0--------------
G|2^4^2----------------------0--0--------------5^6-----3/4---4--------0-------
D|--------0-0-2----2---------2--2------0----5---------------------0h2---------
A|---------------------------3--3---------5-----------------------------1h2---
E|--------------------------------------------------------------------------3-

And on the third measure the 12's play this:
E|0--0----0--0---0-----------0--0----------0--0----0--0---0---0---0--0-------
B|1--1----2--2---2-----2-----0-------0-2--------0--1----0-1-----0-1---1-0--0-
G|0--0--------------3-----3--------3---3---3-------------------------------0-
D|2--2----4----4----4--4--4------------------------------------------------0-
A|3--3-----------------------------------------------------------------------
E|---------------------------------------------------------------------------

And the 6 plays this:
E|----------------------------------7--------6-------5--5--/10-8-/13-13/12
B|-2-----2---------------------------------5-------5-----------------------
G|---------3-------------------4/7-----4/6-----4h5------5-----------------
D|---4-----4-----------------4--------------------------------------------
A|-------------------------4----------------------------------------------
E|------------------------------------------------------------------------

              Heres that mid section thing:
E|-------15-|-(5)^7^5-5-3------3------------3-------------------------------
B|----------|-------------------------3-----------4-------------------------
G|-14/16----|--------------3h4----3-4---3h4---3-4---3^4---------------------
D|----------|-------------------------------------------5-------------------
A|----------|---------------------------------------------------------------
E|----------|---------------------------------------------------------------

On the last measure of the vocal part, the 6 plays this:
E|--------------------------------1--------5-------10--8-----8-------10--
B|------------------------0-----1---1--------------------------10/12-----
G|--------------------------1-2-------3/5-----5/10----10-10-10-----------
D|6^8-6^8-6-5-4 --6^8-6-4------------------------------------------------
A|-----------------------------------------------------------------------
E|-----------------------------------------------------------------------
Then just bend the g-string 5th fret up and 
pick it as you release the bend.


The second solo is this:
E|---------------------------------------7-------------------------------
B|-7-----7-----------------------------7---10-10-7-----------------------
G|-9^11--9^11--9p7h9----7-7-7-----9^11-------------9p7-9p7----7-7--------
D|--------------------9-------9----------------------------9------9------
A|-----------------------------------------------------------------------
E|-----------------------------------------------------------------------

E|------7-----------------------------------------------------------------
B|--------10-7------------------------------------------------------------
G|-9^11--------9-7-9-7---7-9-7--------------------------------------------
D|---------------------9-------9-7-9-7---7-9-7---7-9-7/9-7-9-7---7--------
A|-------------------------------------9-------9---------------9----------
E|------------------------------------------------------------------------

E|--------------------------------------10--------------------------------
B|------------------------------------------13-10----10-------------------
G|-----------------------9p7-7---7-9/11-----------12----10^11-------------
D|---------------------7-------9------------------------------12----------
A|9\7-5-5--5-5--5h7/9-----------------------------------------------------
E|------------------------------------------------------------------------

E|-------------------------------------------------15--------------------
B|-------13-15^17-15-------------13-15-(15)^16^17-----15^17-15-----------
G|-9/14---------------12----9/14-----------------------------------------
D|-----------------------------------------------------------------------
A|-----------------------------------------------------------------------
E|-----------------------------------------------------------------------

E|-------------------------------------------------------------15----------
B|-15^17--15---------------------------------------------15^17-----15^17-15
G|------------12-14^16^14---------16^18---14----14-16----------------------
D|-------------------------------------------------------------------------
A|-------------------------------------------------------------------------
E|-------------------------------------------------------------------------

E|------------------------------7----------------------------------------
B|-12^13---12^13^12---------------10-7-10-7\-----------------------------
G|-------------------14------0-------------------------------7-----------
D|------------------------------------------------7-10-7---7-7-----------
A|--------------------------------------------7/9--------9---------------
E|-----------------------------------------------------------------------

E|-----------------------------------------------------------------------
B|-----------------------------------------------------------------------
G|----------------7-------------------7-7-7\-----------------------------
D|-----7-10-7---7-7-------10p7----7---7-7-7\-----------------------------
A|-7/9--------9-------7/9------10---9------------------------------------
E|-----------------------------------------------------------------------

After the next vocals bit, The 12's
play this chord sequence hitting each
one 3 or 4 times:         /--now just arpeggiate this chord
E|-8--7--10---8--12---10/14---------------------------------------------
B|10--8--12--10--13---12/15---------------------------------------------
G|-----------------------16---------------------------------------------
D|----------------------------------------------------------------------
A|----------------------------------------------------------------------
E|----------------------------------------------------------------------

After that, the 12's play this:
E|0-----------------------------2---3---2---0------------0------0--------
B|------3-------------------3----3---3---3---3---1-3---1-----------------
G|0-0-0-0--0-0-0--0-0-0-0---0-----2---2---2---2------2-------------------
D|------------------------0-2-----------------------------------2---2---2
A|------------------------------------------------------------3-----3-3--
E|-----------------------------------------------------------------------

E|-----------------------------------------------------------------------
B|-------------------------------3---------------------------------------
G|-------------------------------2---------------------------------------
D|-5-5-5-4-4-4-2-----------------0---------------------------------------
A|-3-3-3-2-2-2-0--7-7-7-5-5-5-5--2---------------------------------------
E|----------------5-5-5-3-3-2-0--0---------------------------------------

The 6 string part over that is:
E|-15--------------------------------------------------------------------
B|-----(15)^17^15-------------------------8^10---(8)^10^8----------------
G|-----------------(14)^16^14--9--7-8-9-7------7-------------------------
D|-----------------------------------------------------------------------
A|-----------------------------------------------------------------------
E|-----------------------------------------------------------------------

E|15---------------------------------------------------------------------
B|---15^17^15------------------------------------------------------------
G|------------14^16^14-14--14\12-----------------------------------------
D|-------------------------------12-12/14--------------------------------
A|-----------------------------------------------------------------------
E|-----------------------------------------------------------------------

E|-------------------------------7^9-7-5-----------(7)^9^7-7-5-----------
B|-----------------6---5-----5------------7^9-7-5------------------------
G|-----------5-5-7---7---7-7---------------------------------------------
D|-----5-5-7-------------------------------------------------------------
A|-5-7-------------------------------------------------------------------
E|-----------------------------------------------------------------------

And then the power chords with the 12's and the 6

Next is as little soloing over the rythym laid down by the 2 12's and
1 6
E|-----------------------------------------------------------------------
B|-----------------------------------------------------------------------
G|--7^9^7p5-------------2h4p2---2----------2h4p2---2------2h4p2---2------
D|----------7-------2-4-------4--------2-4-------4--------------4--------
A|-----------------------------------------------------------------------
E|-----------------------------------------------------------------------

E|------2----------------------------------------------------------------
B|--------5-2---------2----10h13p10--12-15-15^16--15-12-12---------------
G|-4^6--------4-2-4-2----------------------------------------------------
D|-----------------------------------------------------------------------
A|-----------------------------------------------------------------------
E|-----------------------------------------------------------------------

E|-----------------------------------------------------------------------
B|------10-12-10----10----10--------10-12-10----10----12------10-12-10---
G|-9/11----------11----11------9/11----------11----11-----9/11-----------
D|-----------------------------------------------------------------------
A|-----------------------------------------------------------------------
E|-----------------------------------------------------------------------

E|--------------------5---------------------------------------------------
B|----10-10-------------5^7-5-3-3-----------------------------------------
G|-11-------12----------------------2p0---0-2p0---0-----------------------
D|--------------------------------------4-------4----2p0---0-2p0---0------
A|-------------------------------------------------------4-------4--------
E|------------------------------------------------------------------------

E|-----------------------------------------------------------------------
B|-----------------------------------------------------------------------
G|-2p0--0---------2p0--0---------2p0---0---------------------------------
D|-----4---2p0--0-----4--2p0---0-----4---2p0---0-2p0-0-------------------
A|-------------4-------------4---------------4---------------------------
E|-----------------------------------------------------------------------

E|--------------------15------------------------13-14-15--------------------
B|-----13-15-15^17-15----15^17-15------13-15^17----------15^17-15-13-15-13\-
G|-/14------------------------------14--------------------------------------
D|--------------------------------------------------------------------------
A|--------------------------------------------------------------------------
E|--------------------------------------------------------------------------

Now w/heavy distortion repeat this figure
a few times and end it w/ that last 
little chord.
E|-----------------------------------------------------------------------
B|-----------------------------------------------------------------------
G|-------------2----------------------4p2-----------------2--------------
D|-2-2-----2-4---4-2--2-2------2-4-2------4p2-------------0--------------
A|-0-0-2/4------------0-0--2/4-------------------------------------------
E|-----------------------------------------------------------------------