THE ROVER

6 5 4 3 2 1
E A D G B E
*=bent some while played
E---------------------------------------------------------------------------
B---------------------------------------------------------------------------
G-----------------------*---------------------------------------------------
D------5-----([7] ^ 9)--5---------------------------------------------------
A---------7----------------7-----7--5--5--7---------------------------------
E--0------------------------------------------3--0--------------------------

===========================================================================
Intro-

E---------------------------------------------------------------------------
B------ * -----------------------------------------------10--9----10--9-----
G-------9-------------------------------------------------9--9-----9--9-----
D-------9-------------------------------------------------9--9-----9--9-----
A-------7---------------------------(7 + 9)--9------------7--7-----7--7-----
E--------------3--3--5--5--3--5--3------------------------------------------

* (Opening chord)

E---------------------------------------------------------------------------
B--------------------------------------------------------10--9--------------
G---------------------------------------------------------9--9--------------
D---------------------------------------------------------9--9----5---------
A----------------------------------(7 + 9)--9-------------7--7-------7------
E----0-------3--3--5--5--3--5--3--------------------------------------------

===========================================================================
Verse Riff-    (4x inst.)


E---------------------------------------------------------------------------
B---------------------------------------------------------------------------
G---------0-----([2] ^ 4)---0-----------------------------------------------
D------------2------------------2------2--0--0--2---------------------------
A---------------------------------------------------------------------------
E----0----------------------------------------------3--0--------------------

===========================================================================
Chorus-  (inst.)

   F#m    E     D            F#m      A       E      (This line 2x)
E---------------------------------------------------------------------------
B---------------------------------------------------------------------------
G--11-11---9-9---7------------7/11-11--14--14--9/---------------------------
D--11-11---9-9---7------------7/11-11--14--14--9/---------------------------
A---9--9---7-7---5------------5/9---9--12--12--7/---------------------------
E---------------------------------------------------------------------------

 F#m    E     D          C#m   B         A         E
E---------------------------------------------------------------------------
B---------------------------------------------------------------------------
G-11-11--9--9--7------7---6--6--4------4--2--2------------------------------
D-11-11--9--9--7------7---6--6--4------4--2--2------------------------------
A--9--9--7--7--5------5---4--4--2------2--0--0------------------------------
E------------------------------------------------3--0-----------------------

===========================================================================
Verse Riff- (1st Verse, played 4x)

E---------------------------------------------------------------------------
B---------------------------------------------------------------------------
G---------0-----([2] ^ 4)---0-----------------------------------------------
D------------2------------------2------2--0--0--2---------------------------
A---------------------------------------------------------------------------
E----0----------------------------------------------3--0--------------------

    (This line played 2nd time only)
E-----------------------------------------0---------------------------------
B-----------------------------------------0---0-----------------------------
G-------0-----([2] ^ 4)---0-----------------------0-------------------------
D----------2------------------2------2----------------2--2------------------
A---------------------------------------------------------------------------
E--0------------------------------------------------------------------------

===========================================================================
Chorus-  (Vocals 1 + 2)

   F#m    E     D            F#m      A       E      (This line 2x)
E---------------------------------------------------------------------------
B---------------------------------------------------------------------------
G--11-11---9-9---7------------7/11-11--14--14--9----------------------------
D--11-11---9-9---7------------7/11-11--14--14--9----------------------------
A---9--9---7-7---5------------5/9---9--12--12--7----------------------------
E---------------------------------------------------------------------------

 F#m    E     D          C#m   B         A         E
E---------------------------------------------------------------------------
B---------------------------------------------------------------------------
G-11-11--9--9--7------7---6--6--4------4--2--2------------------------------
D-11-11--9--9--7------7---6--6--4------4--2--2------------------------------
A--9--9--7--7--5------5---4--4--2------2--0--0------------------------------
E------------------------------------------------3--0-----------------------

===========================================================================
(This part is played over the chords above for Vocal Chorus 1 + 2)
                                         (Play this line 2x)

  F#m          E           D             F#m         A           (D)
E------------------------------------------------------------9--------------
B----------10-----------9-------------------------10-----10-----------------
G------11-----------9-------11----------------11------9---------------------
D--11-----------9-------------------------11--------------------------------
A---------------------------------------------------------------------------
E---------------------------------------------------------------------------

 F#m             E               D              C#m        B        A
E---------------------------------------------------------------------------
B---------10------9---------------7-----7--------5-----5----4-----4--2-----2
G-----11------11-----9-----9---------7-----7--------6----------4--------2---
D-11--------------------9---------------------------------------------------
A---------------------------------------------------------------------------
E---------------------------------------------------------------------------

===========================================================================
Inst. before Solo-

  8x                          (On the 6thx, play riff below)
E--------------------------------|------------------------------------------
B---7--7--7--7--9--9\0-----------|------------------------------------------
G---7--7--7--7--9--9\0-----------|--------------------------9---------------
D---7--7--7--7--9--9\0-----------|----------------(9 + 11)------------------
A--------------------------------|--------(9 + 11)--------------------------
E------------------------0-------|------------------------------------------

===========================================================================
Solo-   (I put dots below to denote groups of notes)

                        F#m              E        D                   F#m 
E---------------------------------------------------------------------------
B-----------------7--------------------------------------------------5--7---
G-----------6--9-------------------------------4--(6 - 4)------4--/6--------
D---(7 + 9)-------------------------------4--7------------7-----------------
A------------------------------(4 + 5 + 7)----------------------------------
E------------------------(5 + 7)--------------------------------------------
    .                    .                .       .            .
      F#m(cont.)            A            E
E-------------------------7--7----------------------------------------------
B--(10 - 9 - 7)--(9 + 10)-------(10 ^ 12)----------(10 - 7)-----------------
G-------------------------------------------------------------9-------------
D---------------------------------------------------------------------------
A---------------------------------------------------------------------------
E---------------------------------------------------------------------------
   .             .                                  . 
 F#m                 E                       D
E----------------------------------------------------9----------------------
B--------------------------(9 + 10 - 9)-(9 + 10 + 12)--12-(10 - 9)-9--------
G-(9 + 11)-11--------(9 + 11)---------10-------------------------11-(11 - 9)
D--------------(9 + 11)-----------------------------------------------------
A---------------------------------------------------------------------------
E---------------------------------------------------------------------------
 .            .            .            .                  .       .
                            F#m         A          E   

E---------------------------------------------------------------------------
B---------------------------------------------------------------------------
G-(11 - 9)---(11 - 9)---------------------9-9-9-9--------9-9-9-------9-9-9--
D------------------(11 - 9)--9\7-7----(7/9)----------(7/9)-------(7/9)------
A---------------------------------------------------------------------------
E---------------------------------------------------------------------------
   .        .               .          .             .           .
  F#m                                E                      D
E-------------------------------------------17------------------------------
B----------------------(17 ^ 19)--(17 ^ 19)----([17] ^ 19 v 17)-------------
G-(16 ^ 18)--(16 ^ 18)------------------------------------------------------
D---------------------------------------------------------------------------
A---------------------------------------------------------------------------
E---------------------------------------------------------------------------
  .                    .                                          
                     C#m                       B                         A
E----17------------------------17------------------------17-----------------
B-14----([17] ^ 19 v 17)----14----([17] ^ 19 v 17)----14----([17] ^ 19 v 17)
G---------------------------------------------------------------------------
D---------------------------------------------------------------------------
A---------------------------------------------------------------------------
E---------------------------------------------------------------------------
 .                         .                         .
E-------?-------------------------------------------------------------------
B--14--(17 - 14)------------------------------------------------------------
G----------------(16 - 14)--------------------------------------------------
D---------------------------(16 - 14)---------------------------------------
A---------------------------------------------------------------------------
E---------------------------------------------------------------------------
  .
===========================================================================
Verse 3-

Same as Verses before.

Chorus 3- 

Same as Choruses before.

===========================================================================
Verse 4-  (and outro)
            I am starting this at the end of the vocals.

E---------------------------------------------------------------------------
B---------------------------------------------------------------------------
G---------0-----([2] ^ 4)---([2] ^ 4)--([2] ^ 4)--0--0--------0--0---(0 + 1)
D------------2------------------------------------------2--2-------2--------
A---------------------------------------------------------------------------
E----0----------------------------------------------------------------------

    (3x)            |
E-------------------|-------------------------------------------------------
B-------------------|-------------------------------------------------------
G--0--0---(0 + 1)---|------------------------------------0--0--0--0---------
D-------2-----------|--0--0--0--2----------0--0--0--2----------------2------
A-------------------|-------------------------------------------------------
E-------------------|-------------------------------------------------------
                    |
    (3x)
E---------------------------------------------------------------------------
B---------------------------------------------------------------------------
G---(0 + 2)--(0 + 2)--(0 + 2)-----------------------------------------------
D------------------------------2--2-----------------------------------------
A---------------------------------------------------------------------------
E---------------------------------------------------------------------------

   (4x)
E---------------------------------------------------------------------------
B---------------------------------------------------------------------------
G------------0--0----------------0------(0 + 2)-----------------------------
D---(0 + 2)-------------(0 + 2)-----2------------2--------------------------
A---------------------------------------------------------------------------
E---------------------------------------------------------------------------

      etc
E---------------------------------------------------------------------------
B-------------12--12-------------------12-------(12 + 14)-------------------
G-------------12--12-------------------12-------(12 + 14)-------------------
D--(12 + 14)----------------(12 + 14)------14--------------12---------------
A---------------------------------------------------------------------------
E---------------------------------------------------------------------------