THAT'S THE WAY

6 5 4 3 2 1
E A D G B E
  VERSE
E|-0-0-0-0-0--0--0-0-4--4-4----|-0-0-0-0-0--0--0-0----0-0-0-0-||--
B|-0-0-0-0-1--3--3-3-0--0-0----|-3-3-3-3-1--0--0-0----1-1-1-1-||--
G|-0-0-0-0-0--0--0-0-0--0-0----|-0-0-0-0-0--0--0-0----0-0-0-0-||--
D|-0-0-0-0-2--4--4-4-0--0-0----|-4-4-4-4-2--0--0-0----2-2-2-2-||--
A|-0-0-0-0-0--0--0-0-0--0-0-0--|-0-0-0-0-0--0--0-0-0--0-0-0-0-||--
E|-----------------------------|------------------------------||--

  CHORUS
E|--3--3-----3-----3--3--3--3--3-----3----3--3--3--|-
B|--3--3-----3-----3--3--3--3--3-----3----3--3--3--|-
G|--3--------3-----3--3--3--3--------3----3--3--3--|-
D|--3-----3--3--3--3--3--3--3-----3--3--3-3--3--3--|-
A|--------0-----0-----------------0-----0----------|-
E|-------------------------------------------------|-
           
E|-0-0-0-0-0--0--0-0-4--4-4----|-0-0-0-0-0--0--0-0----0-0-0-0-||--
B|-0-0-0-0-1--3--3-3-0--0-0----|-3-3-3-3-1--0--0-0----1-1-1-1-||--
G|-0-0-0-0-0--0--0-0-0--0-0----|-0-0-0-0-0--0--0-0----0-0-0-0-||--
D|-0-0-0-0-2--4--4-4-0--0-0----|-4-4-4-4-2--0--0-0----2-2-2-2-||--
A|-0-0-0-0-0--0--0-0-0--0-0-0--|-0-0-0-0-0--0--0-0-0--0-0-0-0-||--
E|-----------------------------|------------------------------||--

E|--3--3-----3-----3--3--3--3--3-----3----3--3--3--|-
B|--3--3-----3-----3--3--3--3--3-----3----3--3--3--|-
G|--3--------3-----3--3--3--3--------3----3--3--3--|-
D|--3-----3--3--3--3--3--3--3-----3--3--3-3--3--3--|-
A|--------0-----0-----------------0-----0----------|-
E|-------------------------------------------------|-
                          
E|--4--4-----4-----4--4--4--|--4--4-----4-----4--4--4--|-      
B|--3--3-----3-----3--3--3--|--3--3-----3-----3--3--3--|-
G|--2--------2-----2--2--2--|--2--------2-----2--2--2--|-     
D|--0-----0--0--0--0--0--0--|--0-----0--0-----0--0--0--|-      
A|--0-----0--0--0--0--0--0--|--0-----0--0-----0--0--0--|-      
E|--------------------------|--------------------------|-     
 
E|--0--0--0--0-----0-----0-----0--0--0--0--0--0-----0-----0-----0--0--0--||-
B|--3--3--3--3-----3-----3-----3--3--1--1--1--1-----1-----1-----1--1--0--||-
G|--0--0--0--0--0--0-----0-----0--0--0--0--0--0--0--0-----0-----0--0--0--||-
D|--3--3--3--3--3--3-----3-----3--3--2--2--2--2--2--2-----2-----2--2--0--||-
A|--0--0--0--0--0--0-----0-----0--0--0--0--0--0--0--0-----0-----0--0--0--||-
E|--------------------------------------------------------------------0--||-

   ENDING
E|-0--0-0-0--0-0-0--0-0-0--0-0-|-0--0-0-0--0--0--0--0-0-0-0--|| --0-
B|-0--0-0-1--1-1-3--3-3-5--0-0-|-7--7-7-7--7--7--7--0-0-0-0--|| --5-
G|-0--0-0-0--0-0-0--0-0-0--0-0-|-7--7-7-7--7--7--7--0-0-0-0--||o--5-
D|-0--0-0-2--2-2-4--4-4-5--0-0-|-0--0-0-0--0--0--0--0-0-0-0--||o--0-
A|-0--0-0-0--0-0-0--0-0-0--0-0-|-7--7-7-7--7--7--7--0-0-0-0--|| --5-
E|-----------------------------|-0--0-0-0--0--0--0-----------|| ----

                     (play 3 times)
E|--0--5--0--0--0--0-0-0-0- || --0--0-0-0--0--0--0--0-0-0- ||-
B|--7--0--7--7--0--0-0-0-0- || --7--7-7-7--7--7--7--7-7-7- ||-
G|--7--7--7--7--0--0-0-0-0-o||o--7--7-7-7--7--7--7--7-7-7-o||-
D|--0--0--0--0--0--0-0-0-0-o||o--0--0-0-0--0--0--0--0-0-0-o||-
A|--7--7--7--7--0--0-0-0-0- || --7--7-7-7--7--7--7--7-7-7- ||-
E|------------------------- || --0--0-0-0--0--0--0--0-0-0- ||-