TANGERINE

6 5 4 3 2 1
E A D G B E
E|--------0-0-0---|3---3-2-2-------|2---2-000-0-0-0-|3---3-2-2---2-0-|
B|--------1-1-1-0-|0---0-3-3-----3-|3---3-001-1-1-1-|0---0-3-3---3-1-|
G|--------2-2-2-0-|0---0-2-2---2---|2---2-002-2-2-2-|0---0-2-2---2-0-|
D|--------2-2-2-2-|0---0-0-0---0---|0---0---2-2-2-2-|0---0-0-0---0-2-|
A|--------0-0-0-0-|2---2-0-0-------|0---0---0-0-0-0-|2---2-0-0---0-3-|
E|----------------|3---3-----------|----------------|3---3-----------|

E|0---0-----------|2---2-222--33--2|2-----222-2---2-|
B|1---1-----------|3---3-333--00--3|3-----333-3---3-|
G|0---0-----00--00|2---2-222--00--2|2-----222-2---2-|
D|2---2-2--2---0--|0---0-000--00--0|0-----000-0---0-|
A|3---3-3-3---2---|0---0-000------0|0-----000-0---0-|
E|----------------|----------------|----------------|

E|2-------0-0-0---|3---3-2-2-------|2---2-000-0-0-0-|3---3-2-2---2-0-|
B|3-------1-1-1-0-|0---0-3-3-----3-|3---3-001-1-1-1-|0---0-3-3---3-1-|
G|2-------2-2-2-0-|0---0-2-2---2---|2---2-002-2-2-2-|0---0-2-2---2-0-|
D|0-------2-2-2-2-|0---0-0-0---0---|0---0---2-2-2-2-|0---0-0-0---0-2-|
A|0-------0-0-0-0-|2---2-0-0-------|0---0---0-0-0-0-|2---2-0-0---0-3-|
E|----------------|3---3-----------|----------------|3---3-----------|
  Measuring a summer's day...

E|0---0-----------|----2-222--33--2|2-----222-2---0-|2-----000-222--3|
B|1---1-----------|----3-333--00--3|3-----333-3---3-|3-----111-333--0|
G|0---0-----00--00|----2-222--00--2|2-----222-2---0-|2-----000-222--0|
D|2---2-2--2---0--|----0-000--00--0|0-----000-0---0-|0-----222-000--0|
A|3---3-3-3---2---|0---0-000------0|0-----000-0-----|------333------2|
E|----------------|----------------|----------------|---------------3|

E|3---3---3-2-2-0-|0---0-000--22--3|3---3---3-2-2-0-|0---0-000--22--3|
B|0---0---0-3-3-1-|1---1-111--33--0|0---0---0-3-3-1-|1---1-111--33--0|
G|0---0---0-2-2-0-|0---0-000--22--0|0---0---0-2-2-0-|0---0-000--22--0|
D|0---0---0-0-0-2-|2---2-222--00--0|0---0---0-0-0-2-|2---2-222--00--0|
A|2---2---2-----3-|3---3-333------2|2---2---2-----3-|3---3-333------2|
E|3---3---3-------|---------------3|3---3---3-------|---------------3|
  Tangerine...     Tangerine...

E|3---3---3-2-2-0-|0---0-000--22--3|3-3-3--33-3-3333|3-2-2-2-2-22333-||
B|0---0---0-3-3-1-|1---1-111--33--0|0-0-0--00-0-0000|0-3-3-3-3-33333-||
G|0---0---0-2-2-0-|0---0-000--22--0|0-0-0--00-0-0000|0-222-2-2-22222-||
D|0---0---0-0-0-2-|2---2-222--00--0|0-0-0--00-0-0000|0-0-0-0-0-00000-||
A|2---2---2-----3-|3---3-333------2|2-2-2--22-2-2222|2---------------||
E|3---3---3-------|---------------3|3-3-3--33-3-3333|3---------------||

E|--------0-0-0---|3---3-2-2-------|2---2-000-0-0-0-|3---3-2-2---2-0-|
B|--------1-1-1-0-|0---0-3-3-----3-|3---3-001-1-1-1-|0---0-3-3---3-1-|
G|--------2-2-2-0-|0---0-2-2---2---|2---2-002-2-2-2-|0---0-2-2---2-0-|
D|--------2-2-2-2-|0---0-0-0---0---|0---0---2-2-2-2-|0---0-0-0---0-2-|
A|--------0-0-0-0-|2---2-0-0-------|0---0---0-0-0-0-|2---2-0-0---0-3-|
E|----------------|3---3-----------|----------------|3---3-----------|
  Thinking how it...

E|0---0-----------|2---2-222--33--2|2-----222-2---2-|2-----223-2---0-|2---------------|
B|1---1-----------|3---3-333--00--3|3-----333-3---3-|3-----333-3---3-|3---------------|
G|0---0-----00--00|2---2-222--00--2|2-----222-2---2-|2-----222-2---0-|2---------------|
D|2---2-2--2---0--|0---0-000--00--0|0-----000-0---0-|0-----000-0---0-|0---------------|
A|3---3-3-3---2---|0---0-000------0|0-----000-0---0-|0-----000-0-----|0---------------|
E|----------------|----------------|----------------|----------------|----------------|
												   And I do...

Solo:
----
Played w/ a very fuzzy guitar! I've left in chords to assist with
accompanying guitar.
 
Notes: 1/3    1 played, bent up to 3
       3/1    3 played while bent, and returned to 1
       1/3\1  1 played, bent up to 3 and then returned to 1
       1h3    1 played then hammer-on 3
       3p1    3 played then pull-off to 1
       1s3    1 played then slide to 3
 
 
  Am                                C
E---------------------------------|-8---------------10---10/12\10---|
B-10------------------------------|---------------------------------|
G---------------------------------|---------------------------------|
D---------------------------------|---------------------------------|
A---------------------------------|---------------------------------|
E---------------------------------|---------------------------------|
 
  D                                 F
E-10-------------------------8p7--|-8------------------------10-----|
B---------------------------------|---------------------------------|
G---------------------------------|---------------------------------|
D---------------------------------|---------------------------------|
A---------------------------------|---------------------------------|
E---------------------------------|---------------------------------|
 
  E               F         E       E       E       F
E-7---------7-7---8--10-----6/7s5-|-7----------7-7--8----10---------|
B---------------------------------|---------------------------------|
G---------------------------------|---------------------------------|
D---------------------------------|---------------------------------|
A---------------------------------|---------------------------------|
E---------------------------------|---------------------------------|
 
  C               G                 D
E-15/17--15------------18/19-18/19|-18/19\s17-17-18/19--19/20--19/20|
B---------------------------------|---------------------------------|
G---------------------------------|---------------------------------|
D---------------------------------|---------------------------------|
A---------------------------------|---------------------------------|
E---------------------------------|---------------------------------|
 
E-21/22---------------------------|
B---------------------------------|
G---------------------------------|
D---------------------------------|
A---------------------------------|
E---------------------------------|
 
[this was worked out using a twenty-fret acoustic, so it _may_ be incorrect.
 feel free to modify to taste.]

E|3---3---3-2-2-0-|0---0-000--22--3|3---3---3-2-2-0-|0---0-000--22--3|
B|0---0---0-3-3-1-|1---1-111--33--0|0---0---0-3-3-1-|1---1-111--33--0|
G|0---0---0-2-2-0-|0---0-000--22--0|0---0---0-2-2-0-|0---0-000--22--0|
D|0---0---0-0-0-2-|2---2-222--00--0|0---0---0-0-0-2-|2---2-222--00--0|
A|2---2---2-----3-|3---3-333------2|2---2---2-----3-|3---3-333------2|
E|3---3---3-------|---------------3|3---3---3-------|---------------3|
  Tangerine...     Tangerine...

E|3---3---3-2-2-0-|0---0-000--22--3|3-3-3--33-3-3333|3-2-2-2-2-22333-||
B|0---0---0-3-3-1-|1---1-111--33--0|0-0-0--00-0-0000|0-3-3-3-3-33333-||
G|0---0---0-2-2-0-|0---0-000--22--0|0-0-0--00-0-0000|0-222-2-2-22222-||
D|0---0---0-0-0-2-|2---2-222--00--0|0-0-0--00-0-0000|0-0-0-0-0-00000-||
A|2---2---2-----3-|3---3-333------2|2-2-2--22-2-2222|2---------------||
E|3---3---3-------|---------------3|3-3-3--33-3-3333|3---------------||

E|2-------------22|2-------------22|2-------------22|2-------------22|
B|3-------------33|3-------------33|3-------------33|3-------------33|
G|2-------------22|2-------------22|2-------------22|2-------------22|
D|0-------------00|0-------------00|0-------------00|0-------------00|
A|----------------|----------------|----------------|----------------|
E|----------------|----------------|----------------|----------------|

E|2------------222|2-------------22|2-------------22|2---2--23-220-0-|
B|3------------333|3-------------33|3-------------33|3---3--33-333-3-|
G|2------------222|2-------------22|2-------------22|2---2--22-220-0-|
D|0------------000|0-------------00|0-------------00|0---0--00-000-0-|
A|----------------|----------------|----------------|----------------|
E|----------------|----------------|----------------|----------------|
		   \3/

E|2---2--23-220-0-|2---2--23-220-0-|2---2--23-220-0-|3-------0-------|
B|3---3--33-333-3-|3---3--33-333-3-|3---3--33-333-3-|1-------1-------|
G|2---2--23-220-0-|2---2--23-220-0-|2---2--23-220-0-|2-------2-------|
D|0---0--00-000-0-|0---0--00-000-0-|0---0--00-000-0-|2-------2-------|
A|----------------|----------------|----------------|0-------0-------|
E|----------------|----------------|----------------|--------------3-|

E|----------------|----------------|----------------|
B|0-13-33333333330|0-0-1-1111--11-1|1-0-0-----------|
G|0-0-000000000000|2-----2220--20-0|0-0-0-----------|
D|-----00000000000|3-----33333--333|----------------|
A|-----22222222222|----------------|----------------|
E|-----33333333333|----------------|----------------|