ROCK AND ROLL

6 5 4 3 2 1
E A D G B E
 A riff
E|------------------------|--------------------------|
B|------------------------|--------------------------|
G|------------------------|--------------------------|
D|-2--2-----2--5^2--4-----|-----2--4--2--2--2--4--2--|
A|-0--0--4--0--0----0--3'-|-(3)-0--0--0--0--0--0--0--|
E|------------------------|--------------------------|


  D riff
E|------------------------|--------------------------|
B|------------------------|--------------------------|
G|-2--2-----2--5^2--4-----|-----2--4--2--2--2--4--2--|
D|-0--0--4--0--0----0--3'-|-(3)-0--0--0--0--0--0--0--|
A|------------------------|--------------------------|
E|------------------------|--------------------------|

  E riff
E|---------------------------------------------------|
B|------------------------|--------------------------|
G|------------------------|--------------------------|
D|------------------------|--------------------------|
A|-2--2-----2--5^2--4-----|-----2--4--2--2--2--4--2--|
E|-0--0--4--0--0----0--3'-|-(3)-0--0--0--0--0--0--0--|

The riff names coorespond to the chord names of a twelve bar blues in A.  Since
each riff is two measures long the progression looks like this:

| A riff | A riff | D riff | A riff | E riff | A riff |

The verse tab also follow the chords of a twelve bar blues like this.

 A verse riff
E|-----------------|            E|------------------|
B|-----------------|            B|------------------|
G|-----2-----------| play 3     G|-----2-----2------|
D|-----2-----------| times      D|-----2-----2------|
A|-----0-----------| <----      A|-----0-----0------|
E|--3--------------|            E|--3-----3-----3^0-|

 D verse riff
E|-----------------|            E|------------------|
B|-----3-----------| play 3     B|-----3-----3------|
G|-----2-----------| times      G|-----2-----2------|
D|-----0-----------| <----      D|-----0-----0------|
A|--3--------------|            A|--3-----3-----3^0-|
E|-----------------|            E|------------------|

E verse riff
E|--------------------------|--------------------------|------------|
B|--------------------------|--------------------------|------------|
G|--------------------------|--------------------------|------------|
D|--9--9--11-9--9--9--11-9--|--9--9--11-9--9--9--11-9--|--7---------|
A|--7--7--7--7--7--7--7--7--|--7--7--7--7--7--7--7--7--|--5---------|
E|--------------------------|--------------------------|------------|

The end is as follows:

  free time
E|--------------------------------------------------------------------------|
B|--5-----------------------------------------------------------------------|
G|--x-----------------------------------------------------------------------|
D|--5---------------------------5^7^5-7^5----5------------------------------|
A|--4--------3^5^3------3-5/7-------------0-----------------------5---------|
E|-------5---------3^5------------------------------------------------------|