IN THE EVENING

6 5 4 3 2 1
E A D G B E
E-----------------------------------------------------------------------
B---5--5-5--3--3--2\\0//2\\0-------------5-5-5-3-3--2\\0//2-------------
G---4--4-4--2--0--2\\0//2\\0-------------4-4-4-2-0--2\\0//2-------------
D---2--2-2--0--0--2\\0//2\\0----2-5-2----2-2-2-0-0--2\\0//2-------------
A-----------------------------------------------------------------------
E-0-----------------------------------0---------------------------------
                     ^^^Thats a bend down on the whammy bar

The first chorus has something like this:

E---------5--------------------------------------------------------------
B--7--7---5--7---------7--7/8-7----------------5--7-----------7/8--7-----
G--7--7---6--7------7--7--7/9-7---7-7/9-7--7---6--7--------7--7/9--7-----
D--7--7---7--7------7-------------7-7/9-7--7---7--7----7/9-7-------------
A--5--5---7--5--9-9-------------9---------9----7--5--9-------------------
E---------5--------------------------------------------------------------

E--------------------------------------------------------------------------
B------------------7-----------7------------------7------------------------
gG--------------6--7------7/9--7--------7------6--7------------------------
D----7/9-7---7--7--7----------------7/9-7------7--7------------------------
A--9-------9----7--5----9---------9------------7--5------------------------
E---------------5------------------------------5---------------------------


The second and fourth choruses  go with this chord sequence:

E---3--3---------3--3---3-------5--5---5--5--------------------------------
B---3--3--7------3--3---3----9--5--5---5--5--9-----------------------------
G---4--4--7------4--4---4----9--6--6---6--6--9-----------------------------
D---5--5--7------5--5---5----9--7--7---7--7--9------4-4-4------------------
A---5--5--5------5--5---5----7--7--7---7--7--7--7---2-2-2------------------
E---3--3---------3--3---3-------5--5---5--5-----5--------------------------

The fourth chorus has this backing line:

E-------------------7\\6//7------------------------7\\6//7--------------
B---------8-----8---8\\7//8--------------8---8-10--8\\7//8--------------
G-------7---7-7------------------------7---7----------------------------
D--9-9-----------------------------9-9----------------------------------
A-----------------------------------------------------------------------
E-----------------------------------------------------------------------

E----------------------9\\\8//9--------------------9--11-11-11-11-------
B----------10---10-12--10\\9//10-----------10---10----12-12-12-12-------
G--------9----9-------------------------9-----9-------------------------
D-11-11---------------------------11-11---------------------------------
A-----------------------------------------------------------------------
E-----------------------------------------------------------------------

The chorus before the solo goes like this:

E-----------------------------------------------------------------------
B---7-7-----7-7--------------------7----------7/8--7----------------7---
G---7-7-----7-7----------------6---7-----7-7--7/9--7----7--------6--7---
D---7-7-----7-7--------9-7-----7---7-----7-7------------7-7---7--7--7---
A---5-5-----5-5------9-----9---7---5---9--------------9-----9----7--5---
E------------------------------5---------------------------------5------

E-----------------------------------------------------------------------
B------------7/8-7------------------7--7h8-7------------7-----7---------
G------------7/9-7------------7--6--7--7h9-7------------7---6-7---------
D----7/9--7-----------7/9-7---7--7--7-----------7/9-7---7---7-7---------
A--9----------------9-------9----7--5---------9-------9-----7-5---------
E--------------------------------5--------------------------5-----------

The solo is something like this:
The starting thing is Jimmy holding down the Whammy Bar as hard as he can
and forcefully picking out a E-Chord and letting up on the bar:

E-------0----12----------------12-------------------12---------------12--
B------0--------14----------12----15~------------12----15~---------12----
G-----1---14------14--14^16----------------14^16-------------14^16-------
D----2-------------------------------------------------------------------
A---2--------------------------------------------------------------------
E--0---------------------------------------------------------------------
                                             Repeat this^^^^^^^^^^^ 5 times
                                                   pretty quickly

E--17^19--17-15-17--15^16--------------------21^22--19-18-17------------
B---------------------------17--15\\14//15--------------------19^20-----
G-----------------------------------------------------------------------
D-----------------------------------------------------------------------
A-----------------------------------------------------------------------
E-----------------------------------------------------------------------

E--17-18-19-------------------------------------------------------------
B-----------19^21--19-17----19-17----19----17---------------------------
G------------------------18-------18----18------------------------------
D-----------------------------------------------------------------------
A-----------------------------------------------------------------------
E-----------------------------------------------------------------------

Then do the whammy thing again
E------12----------------------12-----------------------------------
B---------14p12-------------12-----15^17^15--12-10-12---------------
G---------------12^13--14^16--------------------------11^12-9-------
D---0---------------------------------------------------------------
A--0----------------------------------------------------------------
E-0-----------------------------------------------------------------
                repeat ^^^^^this 4
		times quickly

E--12---------------------------------------------------------------------
B---------------------------------------------12--------------------------
G-------12----12--14 14^16--14^16-14^16-14^16------15-14-12-14^15-14-12-14
D----------14-------------------------------------------------------------
A-------------------------------------------------------------------------
E-------------------------------------------------------------------------

E-----------------------------------------------------------------------
B-----------------------------------------------------------------------
G--12----12-12----------12---------14^15^14--12-15-14-14-12-------------
D-----14--------12--14-----14-------------------------------14-14-------
A-----------------------------------------------------------------------
E-----------------------------------------------------------------------

E--------------------------12------15^17-(15)^17-(15)^17^15--------------
B-----------------------12----15------------------------------13-13------
G-----------------14^16--------------------------------------------------
D--14-14\\11//14---------------------------------------------------------
A-----------------------------------------------------------------------
E-----------------------------------------------------------------------

This slowed part is backed with these arpeggiated chords
using a chorus in this series
E----------3----------------0-----------------0----------------------------
B--------5---5------------3---3-------------0---0-------------------------3-
G------4-------4-4------4-------4---------2-------2---2---------0-------0---
D----5----------------4-----------4-----2-----------2---------4-------4-----
A--3----------------2-----------------0---------------------2-------2-------
E-------------------------------------------------------0-0-------0---------

E----------2--------------3----------------2-------------------------------
B--------0---0----------5---5------------3---3-----------------------------
G------2-------2------4-------4--------4-------4---4-------2---------------
D----2--------------5-----------5----4-----------4---4---2---2-------------
A--0--------------3----------------2-------------------0-------0-----------
E--------------------------------------------------------------------------

 The solo over it goes like this
E-----------------------------------------------------------------------
B------------------------------------------------8-7---7----------------
G--14-14-14^16------(14)^16^14-----14p12h14----------9---9--9-7---------
D-------------------------------14------------------------------9-7\5-7-
A-----------------------------------------------------------------------
E-----------------------------------------------------------------------

E-----------------------------------------------------------------------
B-----------------------------------------------------------------------
G----7-7-9-9-------9^11^9---------------9^11^9--------------------------
D--9-------------------------7-7----------------------------------------
A-----------------------------------------------10-10/12----------------
E-----------------------------------------------------------------------

 The outro solo
E------15-17-17^19-17-15-17-15~--------------------12\\9//12-----------
B---17---------------------------17-15-17-15-17-17------------12\\8//12
G-----------------------------------------------------------------------
D-----------------------------------------------------------------------
A-----------------------------------------------------------------------
E-----------------------------------------------------------------------