IMMIGRANT SONG

6 5 4 3 2 1
E A D G B E
Main Riff:
[F#m]
E|----------------------------------|---------------------------------|
B|----------------------------------|---------------------------------|
G|----------------------------------|---------------------------------|
D|----------4---------------4-------|---------4---------------4-------|
A|----------------------------------|---------------------------------|
E|--2---2-2---2---2-2---2-2---2---2-|-2---2-2---2---2-2---2-2---2---2-|

Ah,_____________
ah._____________

[A] We [E] come from the land of ice and 
snow, from the midnite sun where the hot springs flow.____

(main riff) 
The hammer of the gods  will drive our ships__ to new lands, to fight the 
horde,__ singing and crying:
[E] Vahala, I am coming!______[A]__[F#m]__
[A] on we sweep_
[B] with treshing oar,_
[C] our only goal will be the west-ern 
shore

(Main riff)
Ah,____________
ah.____________

[A] We [E] come from the land of ice and snow, from the midnite sun where 
the hot springs blow.____

(Main riff)
How soft your fields so green,  can whisper tales__ of gore,___  of how we 
calmed_ the tides of war.___
[E] We are your over lords.
[A] on we sweep_
[B] with treshing oar,_
[C] our only goal will be the west-ern shore

(main riff)
So now you'd better stop__
and rebuild your ruins,
for peace and trust__ can win the day despite of all your 
losing.


E|----------------------------------|---------------------------------|
B|--------------------------3-------|-------------------------3-------|
G|--------------------------3-------|-------------------------3-------|   
D|----------4---------------2-------|---------4---------------2-------|   
A|--------------------------3-------|-------------------------3-------|
E|--2---2-2---2---2-2---2-2---2---2-|-2---2-2---2---2-2---2-2---2---2-|


E|----------------------------------|---------------------------------|
B|--------------------------3-------|---------------------------------|
G|--------------------------3-------|---------------------------------|
D|----------4---------------2-------|---------4-----------------------|
A|--------------------------3-------|---------------------------------|
E|--2---2-2---2---2-2---2-2---2---2-|-2---2-2---2---2-2---------------|