GOING TO CALIFORNIA

6 5 4 3 2 1
D G D G B D
Intro on one guitar

D|----0------------0------------------------------------------------------
B|-----------3------------------------------------------------------------
G|------------------------------------------------------------------------
D|--------0-----------0---------------------------------------------------
G|------------------------------------------------------------------------
D|-0------------0---------------------------------------------------------

At the start of the lyrics, still one guitar

D|--5-------4--4---2----0-----0--2-----0--0-------------------------------
B|------0------------0--------------0--------0----------------------------
G|------0------------0--------------0--------0----------------------------
D|------------------------------------------------------------------------
G|--0----------0--------------0-----------0-------------------------------
D|------------------------------------------------------------------------

At "all my wine" and at corresponding part in next verse

D|-------4\2--2---0------7---------7--------------------------------------
B|-5/7-----5--5------0----------7-----------------------------------------
G|---------------------------9--------------------------------------------
D|-------0-----------0----------0-----------------------------------------
G|------------------------------------------------------------------------
D|-0----------0----------0------------------------------------------------


When the second guitar enters is plays this..

D|-3--2--0---3---3---2--0-----0-------2--0--0----2----0--------0----------
B|--------------------------------------------------------3---------------
G|---------------------------------0--------------------------------------
D|-------0-------0------0-----4----------4-----0--------0---------0-------
G|------------------------------------------------------------------------
D|-0------------------------------------------------0-------0-------------

While the second guitar plays this..

D|------------------------------------------------------------------------
B|------------------------------------------------------------------------
G|------------------------------------------------------------------------
D|------------------------------------------------------------------------
G|------------------------------------------------------------------------
D|------------------------------------------------------------------------

D|----0--0--0------0--0--0------4-------------5---5--4-------0-0-0-0------
B|----0--0--0------0--0--0------3------2h3p2------2-----3----0-0-0-0------
G|----0--0--0------0--0--0------2----------------------------0-0-0-0------
D|------------------------------0-----------------------------------------
G|--------------4---------------------------------------------------------
D|-0-------------------------0--------------------------------------------

D|-0----0-------0----0-----2--4-------------------------------------------
B|-0----0-------0----0-----3--3-------------------------------------------
G|-0----0-------0----0-----2--2-------------------------------------------
D|----------------------------0-------------------------------------------
G|------------------------------------------------------------------------
D|------------------------------------------------------------------------

At the "wrath of the gods" part.. guitar 1 plays X 4

D|7----0--5--5-----0---7--------------------------------------------------
B|--6-----------6---------------------------------------------------------
G|------------------------------------------------------------------------
D|-----------0------------------------------------------------------------
G|------------------------------------------------------------------------
D|7-----------------------------------------------------------------------

then...                 
  |--------X1---------|  |----------X3-----------------|
D|---------0---0-------0-------0---0--------0--0--------------------------
B|----0--2--------2---------2------------2-------0--2---------------------
G|-0----------------------0-----------0-----------------------------------
D|------------------------------------------------------------------------
G|---------------------2-----------2-----------2--------------------------
D|------------------------------------------------------------------------

And guitar 2 plays
  |------X4-----------| |-----X4-------------|
D|---0-----------0--------------------------------------------------------
B|------5--5--6-----6-------2h3---3---2-----2-----------------------------
G|6-----------------------------------------------------------------------
D|---------0----------------2---------------------------------------------
G|-----------------------2--------2------2--------------------------------
D|7-----------------------------------------------------------------------

After that, replay the intro accompanyed by this on guitar 2

D|--------7----------------7-------------7--7--------7--------------------
B|-----7----------------7-------------7-----------7-----------------------
G|--7---------7--7---9----------7--9-----------9--------------------------
D|------------------------------------------------------------------------
G|--7------------7--------------7-----7-----7-----7-----------------------
D|--------7-------------7-------------------------------------------------

D|---------------------7-----7--------7---7--------7----------------------
B|------------------7--------------7------------7-------------------------
G|-7---9--7--7--9---------------9------------9----------------------------
D|---------------------------------0------------0-------------------------
G|-7---7-----7------7-----------------------------------------------------
D|---------------------------0------------0-------------------------------

On the outro both guitars play essentially the same thing.

D|-0----2---2--2-----0----------------------------------------------------
B|------------------------------------------------------------------------
G|------------------------------------------------------------------------
D|----0-----------0-------------------------------------------------------
G|----------0-------------------------------------------------------------
D|-0----------------------------------------------------------------------