FOR YOUR LIFE

6 5 4 3 2 1
E A D G B E
Intro to verses: (for intro to third verse, play the G majors as G minors)

E|3---3-----------3---3------3---3-----------3---3----
B|3---3-----------3---3------3---3-----------3---3----
G|4---4---5-3-5---4---4------4---4---5-3-5---4---4----
D|5---5---5-3-5---5---5------5---5---5-3-5---5---5----
A|5---5---3-3-3---5---5------5---5---3-3-3---5---5----
E|3---3-----------3---3------3---3-----------3---3----

E|3---3-----------3---3------3---3-----------3---3------------
B|3---3-----------3---3------3---3-----------3---3------------
G|4---4---5-3-5---4---4------4---4---5-3-5---4---4----5-3-5---
D|5---5---5-3-5---5---5------5---5---5-3-5---5---5----5-3-5---
A|5---5---3-3-3---5---5------5---5---3-3-3---5---5----3-3-3---
E|3---3-----------3---3------3---3-----------3---3------------

Verses: (repeat this bit three times)
E|--------------------------------------------------------------------
B|--------------------------------------------------------------------
G|5--7-5-5-5-7-5----5--7-5-5-5-7-5------------------------------------
D|5--7-5-5-5-7-5----5--7-5-5-5-7-5------------------------------------
A|3--3-3-3-3-3-3----3--3-3-3-3-3-3------------------------------------
E|--------------------------------------------------------------------

E|3---3-----------3---3------3---3-----------3---3---------------------
B|3---3-----------3---3------3---3-----------3---3---------------------
G|4---4---5-3-5---4---4------4---4---5-3-5---4---4----5-3-5---5-3------
D|5---5---5-3-5---5---5------5---5---5-3-5---5---5----5-3-5---5-3-5-5--
A|5---5---3-3-3---5---5------5---5---3-3-3---5---5----3-3-3---3-3-5-5--
E|3---3-----------3---3------3---3-----------3---3----------------3-3--
                                                     <----->  <----->
                                                      first    third
                                                       two      time
                                                      times

Tail end to each verse:
E|--------------------------------------------------------------------
B|--------------------------------------------------------------------
G|8---8--8----8--10--10-----------------------------------------------
D|8---8--8----8--10--10---7--8----8--10--10---5-----------------------
A|6---6--6----6---8---8---7--8----8--10--10---5-----------------------
E|------------------------5--6----6---8---8---3-----------------------
                                         <----->
                                          first time only

After second verse: (repeat it a few times)
E|--------------------------------------------------------------------
B|--------------------------------------------------------------------
G|---------5----7--7--5------------5----------------------------------
D|7--5-6-7---7--7--7--5---7--5-6-7---7--------------------------------
A|7-------------5--5--5---7-------------------------------------------
E|5-----------------------5-------------------------------------------

sometimes you go on with this:
E|--------------------------------------------------------------------
B|--------------------------------------------------------------------
G|------5----------5----------5---------------------------------------
D|5-6-7---7--5-6-7---7--5-6-7---7-------------------------------------
A|--------------------------------------------------------------------
E|--------------------------------------------------------------------

jingle-jangle bit: (repeat a few times)
E|3------------------------------------------------------------------
B|3-----------1------1------1------1---------------------------------
G|4---------2------0------0------0-----------------------------------
D|5-------3------2------0--------------------------------------------
A|5----------------------------3------1-0----------------------------
E|3---------------------------------------3-1-3-3-3-3-1-3------------


  Guitar solo: (chords under)
E|3------------------------3------------------------------------------
B|3--------------4--4--3---3------------------------------------------
G|3---------3----5--5--3---4---------3--------------------------------
D|5---3-4-5---5--5--5--3---5---3-4-5---5------------------------------
A|5--------------3--3--3---5------------------------------------------
E|3------------------------3------------------------------------------
                               <------->
                                this bit gets repeated every so often

...then repeat the above, but up two frets

Then jingle-jangle bit, then back to intro to third verse.