DANCING DAYS

6 5 4 3 2 1
E A D G B E
               * Basically sliding off the string to open position.
                       
:Intro         |   *    |  --- Repeat two times---
---------------|--------|--------------------------------------------------
-------(2 /3) 2 (/3\2 - 0)--------------(2 /3) 2 (/3\2 - 0)----------------
---------------|--------|--------------------------------------------------
---------------|--------|--------------------------------------------------
---------------------------------------------------------------------------
---------------------------------------------------------------------------


---------------------------------------------------------------------------
-------(2 /3)  (2/3\2 -0)--(/7  \5)-----------(2 /3) 2 (/3\2 - 0)----------
---------------------------------------------------------------------------
---------------------------(/7  \5)----------------------------------------
---------------------------------------------------------------------------
---------------------------------------------------------------------------


===========================================================================
            I found there many veriations on the hammers and pulls.
:Verse 
---------------------------------------------------------------------------
-------0  3  5----- (5 h6) (6 -5)-------(/9 -7)--9 (9 -7)------------------
-------0  3  5-----  5------5------------/6------6  6----------------------
-------0  3  5-----  5------5------------/6------6  6----------------------
---------------------------------------------------------------------------
---------------------------------------------------------------------------


---------------------------------------------------------------------------
-----(/6 -5 h6)--(6 h8)---(5 h6)  5----------------------------------------
------/5----------5--------5------5----------------------------------------
------/5----------5--------5------5------5-7-5-7-5-------------------------
---------------------------------------------------------------------------
---------------------------------------------------------------------------


---------------------------------------------------------------------------
---------------6     (5 h6) (6 -5)-------(/9 -7)--9 (9 -7)-----------------
---------------5      5      5------------/6------6  6---------------------
---------------5      5      5------------/6------6  6---------------------
---------------------------------------------------------------------------
---------------------------------------------------------------------------


---------------------------------------------------------------------------
-----(/6 -5 h6)--(6 h8)---(5 h6)  5----------------------------------------
------/5----------5--------5------5----------------------------------------
------/5----------5--------5------5------5-7-5-7-5-------------------------
---------------------------------------------------------------------------
---------------------------------------------------------------------------


---------------------------------------------------------------------------
--------------(6 -5)     6  (6 -5)-------(/5 -3)--6--3---5--3--------------
---------------5         5   5------------/3------3--3---3--3--------------
---------------5         5   5------------/3------3--3---3--3--------------
---------------------------------------------------------------------------
---------------------------------------------------------------------------


---------------------------------------------------------------------------
------(3 -2) -3--2-(3 h5)--(2 h3) -2---------------------------------------
-------2------2--2--2-------2------2---------------------------------------
-------2------2--2--2-------2------2-----2-3-2-3---------------------------
---------------------------------------------------------------------------
---------------------------------------------------------------------------


---------------------------------------------------------------------------
--------------(6 -5)     6  (6 -5)-------(/5 -3)--6--3---5--3--------------
---------------5         5   5------------/3------3--3---3--3--------------
---------------5         5   5------------/3------3--3---3--3--------------
---------------------------------------------------------------------------
---------------------------------------------------------------------------


---------------------------------------------------------------------------
------(3 -2) -3--2-(3 h5)--(2 h3) -2---------------------------------------
-------2------2--2--2-------2------2---------------------------------------
-------2------2--2--2-------2------2-----2-3-2-3-(or 2-3-2-2-3-2)----------
---------------------------------------------------------------------------
---------------------------------------------------------------------------

===========================================================================
                   
:Solo line over Verse
------------------------8------8---/9--(9/11)--\8--------------------------
------------------5--8--8------8---/9--(9/11)--\8--------------------------
---------------5-----------------------------------------------------------
------------5--------------------------------------------------------------
------3-/7-----------------------------------------------------------------
---------------------------------------------------------------------------


------------------------8--------------------------------------------------
------------------5--8--8--------------------------------------------------
---------------5------------------(17\15)------(15/17)--14-----------------
------------5---------------------(17\15)------(15/17)--14-----------------
------3-/7-----------------------------------------------------------------
---------------------------------------------------------------------------


------------------------8--------------------------------------------------
------------------5--8--8--------------------------------------------------
---------------5------------------(17\15)------(15/17)--14-----------------
------------5---------------------(17\15)------(15/17)--14-----------------
------3-/7-----------------------------------------------------------------
---------------------------------------------------------------------------

===========================================================================

:Solo
---------------------------------------------------------------------------
---------------------------------------------------------------------------
------0--3--/5------3--0--3--/5--6-----------6-8-(8 ^ 10)--8-8-------------
------0--3--/5------3--0--3--/5--6-----------------------------------------
---------------------------------------------------------------------------
---------------------------------------------------------------------------


---------------------------------------------------------------------------
---------------------------------------------------------------------------
------(8 ^ 10)--(8 ^ 10)--8-8-------(8 ^ 10)--(8 ^ 10)-8-8-6-6-8-6-5-------
---------------------------------------------------------------------------
---------------------------------------------------------------------------
---------------------------------------------------------------------------
                          
                          ---or---

---------------------------------------------------------------------------
---------------------------------------------------------------------------
------0--3--/5------3--0--3--/5--6-------(6/8) /10--/10--8-8---------------
------0--3--/5------3--0--3--/5--6-------(6/8) /10--/10--8-8---------------
---------------------------------------------------------------------------
---------------------------------------------------------------------------


----------------------------------------------------------------8----------
---------------------------------------------------------5---5-8-----------
-----/10--/10--8-8---------/10--/10--8-8-6-(6/8\6)-5----5------------------
-----/10--/10--8-8---------/10--/10--8-8-6-(6/8\6)-5---5-------------------
---------------------------------------------------------------------------
---------------------------------------------------------------------------


------(9/10)--9--(9/10\7)   ( over and over)-------------------------------
---------------------------------------------------------------------------
---------------------------------------------------------------------------
---------------------------------------------------------------------------
---------------------------------------------------------------------------
---------------------------------------------------------------------------