BLACK DOG

6 5 4 3 2 1
E A D G B E
E|--------------------------------------------------------------------------
B|--------------------------------------------------------------------------
G|----------5^6----7-9--5h7p5------5^6--------------------------------------
D|--5-6-7-------7--------------7-7------7--5-7-7----------2-2---------------
A|7-------7--------------------------------------5--7\3-5-0-0---------------
E|--------------------------------------------------------------------------

E|--------------------------------------------------------------------------
B|--------------------------------------------------------------------------
G|--------------------------------------------------------------------------
D|----------5^6--------------5^6--------------5^6---------------------------
A|--5-6-7-------7----5-6-7-------7----5-6-7-------7----5-6-7-5--------------
E|7-------7--------7-------7--------7-------7--------7----------------------

During the "Oh Yeah...oh yeah!" part:

E|--------------------------------------------------------------------------
B|--------------------------------------------------------------------------
G|-----2-4^6^4p2-4-2----------2-4^6^4p2-4-2--------------2-4^6^4p2----------
D|--2----------------------2---------------------2--5--2-----------4-2------
A|3-0------------------3^4-0-----------------3^4-0--3--0--------------------
E|--------------------------------------------------------------------------

E|--------------------------------------------------------------------------
B|--------------------------------------------------------------------------
G|--------2-4^6^4p2--4-2--------2-4^6^4p2-4-2----------------2--------------
D|-----2----------------------2-------------------2--5--2----2--------------
A|-3^4-0------------------3^4-0---------------3^4-0--3--0-------------------
E|---------------------------------------------------------3^5--------------

On the last verse, the main riff is doubled with this:

E|--------------------------------------------------------------------------
B|---0-1-2----4^5--2--7-9--5h7p5--2-2--4^5--2--0-2-2------------------------
G|-2-0-1-2-2--5^6--2--7-9--5h7p5--2-2--5^6--2--0-2-2--0-2-2-------2-2-------
D|-2-------2------------------------------------------0-2-2--2/4--2-2-------
A|-----------------------------------------------------------3/5--0-0-------
E|--------------------------------------------------------------------------

This is during the "Hey Baby, Pretty Baby" part and backs the solo:

E|----------------------------------------3---2-----------------------------
B|----------------------------------------3---3-----------------------------
G|-----2----2------2--5--2------2----2----0---2-----------------------------
D|-----2----2------2--5--2------2----2----0---0-----------------------------
A|-----0----0------0--3--0------0----0--------------------------------------
E|-2^3----2----3^4----------2^3----2----------------------------------------

The second time in the song that part is doubled with this:

E|---------------------------------------------------------3--2-------------
B|---------------------------------------------------------3--3-------------
G|--6--4------6---4---6--4--6--6/-9--6-------6--4---6--4---0--2-------------
D|--7--5------7---5---7--5--7--7/10--7-------7--5---7--5---0--0-------------
A|--------------------------------------------------------------------------
E|--------------------------------------------------------------------------


Heres the solo to Black Dog:


E|---------------------------------------------5---------------------5--------
B|----------------------------------------------------------------------------
G|----------------------------------2---2--4/6--------------2--2-4/6----------
D|------------------------------2-4---4-----------------2-4--4----------------
A|-------0-2^3-0-----0---0--2/4-------------------0-2-4-----------------------
E|2--0h2---------2-0-0--------------------------------------------------------

E|--------------------5------------------------------------------5------------
B|----------------------------3-----------------------------------------------
G|----------2---2-4/6-----5^7---5-4-2---2h4------------2---2-4/6--------------
D|------2-4---4-----------------------4------------2-4---4--------------------
A|0-2-4--------------------------------------0-2-4----------------------------
E|----------------------------------------------------------------------------

E|--------------------5----------------------5--------------------------------
B|--------------------------------------------------3-------------------------
G|----------2---2-4/6--------------2---2-4/6----5^7---5-4-2---2h4-------------
D|------2-4---4----------------2-4---4----------------------4-----------------
A|0-2-4------------------0-2/4------------------------------------------------
E|----------------------------------------------------------------------------

E|------5---5-7^9-7-5---5--------8-10--10^11-10^12--(10)^12^10p8--10-10^12^10-
B|------5-7-----------5---5-8/10----------------------------------------------
G|2-4/6-----------------------------------------------------------------------
D|----------------------------------------------------------------------------
A|----------------------------------------------------------------------------
E|----------------------------------------------------------------------------

E|8--10^12--8-----8-------10^12-10-8-10^12^10-------15------------------------
B|------------10-------10------------------------15^17--(15)^17^15p13--15^17--
G|---------------------------------------------0------------------------------
D|----------------------------------------------------------------------------
A|----------------------------------------------------------------------------
E|----------------------------------------------------------------------------

E|------------------------------17------------17-----------20---------20------
B|-15-13---15^17--13-----------------------17-----20^21^22----(20)^22^20--17--
G|-------0----------------19^21------19^21------------------------------------
D|-------------------12-------------------------------------------------------
A|----------------------------------------------------------------------------
E|----------------------------------------------------------------------------

E|-------17--------------------------------------------------20---------------
B|----------20-17-20^22---(20)^22^20--17-----20--------20^22-----(20)^22^20-17
G|19^21-----------------------------------19^21^19^21-------------------------
D|----------------------------------------------------------------------------
A|----------------------------------------------------------------------------
E|----------------------------------------------------------------------------

E|-------------------------------------5------------5------------5------------
B|-----------------------------------5---8p5------5---8p5------5---8p5--------
G|19^21--19--17-----19-17^18---5/7^9----------7^9----------7^9----------------
D|---------------19-----------------------------------------------------------
A|----------------------------------------------------------------------------
E|----------------------------------------------------------------------------

E|------5------------5------------5-------------------------------------------
B|----5---8p5------5---8p5------5---8p5-8p5---5-------------------------------
G|7^9----------7^9----------7^9-------------7---7-5---7-5-5^6--------5--------
D|--------------------------------------------------7----------7-5-7---7------
A|----------------------------------------------------------------------------
E|----------------------------------------------------------------------------

E|----------------------------------------------------------------------------
B|------------------------------------------8---------------------------------
G|-5--7^9-------5--5^6-5^6--7--7^9--7-5---5---7^9-7-5---5/7--------5-------5--
D|------------7-------------------------7-------------7------5-6-7---5-6-7----
A|----------------------------------------------------------------------------
E|----------------------------------------------------------------------------

E|--------------------------------------------------------------------------5-
B|----------------------------------------------------------------------------
G|------5/7--------5-------5/7-------5----------------------------2---2-4/6---
D|5-6-7------5-6-7---5-6-7-----5-6-7---5-6-7------------------2-4---4---------
A|-------------------------------------------7-5-3-4------3h4-----------------
E|---------------------------------------------------5\3----------------------

E|-----------------------5----------------------------------------------------
B|----------------------------------------------------------------------------
G|-------------2---2-4/6----7-----------2---2-4/6-0---------------------------
D|---------2-4---4------------------2-4---4--------------4-0------------------
A|-0--3h4---------------------0-2/4------------------3h4-----3-4-0------------
E|-----------------------------------------------------------------3\2--------

E|---------------------5-5--------8-8---10^12--10-10^12-10-10^12-10-8-10-10^12
B|--------------------------8/10----8-----------------------------------------
G|-----------2---2-4/6--------------------------------------------------------
D|-------2-4---4--------------------------------------------------------------
A|-0-2/4----------------------------------------------------------------------
E|----------------------------------------------------------------------------

E|-8--8^9-----8-------------------------------------------15------------------
B|---------10-----10---13^17^13---10--13^17^13--10-----------15^17--15-13-----
G|--------------------------------------------------14-14-----------------14--
D|----------------------------------------------------------------------------
A|----------------------------------------------------------------------------
E|----------------------------------------------------------------------------
				FADE OUT
E|-------------------------15-------------------------------------------------
B|13h15--13----13h15---13------15^17------------------------------------------
G|----------14----------------------------------------------------------------
D|----------------------------------------------------------------------------
A|----------------------------------------------------------------------------
E|----------------------------------------------------------------------------