BLACK COUNTRY WOMAN

6 5 4 3 2 1
D G D G B D
  INTRO/VERSE
D|-3--2--1--0--0--0--3--2--1--0--0---------|
B|-3--2--1--0--0--0--3--2--1--0--0---------|
G|-0--0--0--0--0--0--0--0--0--0--0---------|
D|-0--0--0--0--0--0--0--0--0--0--0---------|
G|----------------------------------3--0---|
D|-----------------------------------------|

Middle part (play different rhythms and variations with the following
chords, switching back to the above beginning chords at appropriate times):
D|-8--7--5-----10--9--7------------------------------|
B|-8--7--5-----10--9--7------------------------------|
G|-5--5--5------7--7--7------------------------------|
D|-5--5--5------7--7--7------------------------------|
G|-5--5--5------7--7--7------------------------------|
D|---------------------------------------------------|

  ENDING
D|-0--0--0--0--0--2--0--3--------------|
B|-0--0--0--0--0--2--0--3--------------|
G|-0--0--0--0--0--0--0--0--------------|
D|-0--0--0--0--0--0--0--0--------------|
G|-3--2--1--0--0-----------------------|
D|-0--0--0--0--0-----------------------|